rock and roll

za sve rockere
 
Početna stranicaPortailFAQPretražnikRegistracijaČlanstvoKorisničke grupeLogin

Share | 
 

 AZRA

Go down 
Autor/icaPoruka
whitesnake
Administrator
Administrator
avatar

Broj postova : 179
Age : 30
Localisation : Dolina Bogova
Registration date : 04.01.2007

PostajNaslov: AZRA   pet sij 12, 2007 12:47 am

Dzoni budi dobar

C
Ovo je dan kad sam bezuspjesno slagao sve bircuze u niz
C
I hodao ulicama, znam dobro taj film
C
Plazio sam po nogama i to do kasno u noc
C
A vidjeh se na drugoj strani, hej Doni boy.

C G
Zaboravih vam reci da zovu me Johnny
C G
Pravo mi budi za to
C G
Oni sto me vole zovu me tako
F
Kad sam kao mali dos'o u grad
G
Morao sam samom sebi dati nadimak.

C G
Hej, hej, Doni, Doni
C G
Hej, hej, Doni, Doni
C G
Hej, hej, Doni, Doni
F
Budi dobar, budi dobar, budi dobar
Johnny B. Goode.

To je dan kad sam ocajnicki trazio si partnera za fuk
I lutao ulicama, vrtio se u krug
Pjevao sam stare stvari i to do kasno u noc
A vidjeh se na drugoj strani, hej Doni boy.

Zaboravih vam reci da zovu me Doni
Pravo mi budi za to
Oni sto me vole zovu me tako
Kad sam kao mali dos'o u grad
Morao sam samom sebi dati nadimak.

Hej, hej, Doni, Doni
Hej, hej, Doni, Doni
Hej, hej, Doni, Doni
Budi dobar, budi dobar, budi dobar
Johnny B. Goode.

Balkan

G Am C Em
Jednog dana nema me, da nikada ne dodjem,
G Am C Em
prijatelje koje znam, ne poznajem kad prodjem.

Kao da me nikada, na svijetu nije bilo,
kao da me njezino, tijelo nije htilo,

Moja pjesma miruje, a furala bi furke,
lijepe dekle moderne, ne padaju na zurke.

Brijem bradu, brkove, da licim na "pankrte",
jos da imam fendera, vidio bih svirke.

G Am C Em
Balkane, Balkane, Balkane moj,
G Am C Em
budi mi silan, i dobro mi stoj!

Mi smo ljudi, Cigani, sudbinom prokleti,
uvijek neko oko nas dodje pa nam prijeti.

Ni bendovi nisu vise, kao sto su bili,
i moj se amaterski priprema da snimi.

Balkane, Balkane, Balkane moj,
budi mi silan i dobro mi stoj!

Tople usne zene

Intro : D A D A D A h G A
D A D A D A h G F#m
A

Hm F#m Hm F#m
Noci su ovdje cudne dileme.
Hm F#m A
Ulicna svjetla rano blijede.
Hm F#m Hm F#m
A u mraku sobe miris kose njene
Hm F#m A
lebdi svuda oko mene.

D A D G A
Noci su ovdje ravnodusne sjene.
D A D (F#m)
Kada spavam zaklanjam lice.

A
D A D A
I uvijek sanjam tople usne zene
D A D G A
kako me ljube, kako me ljube.

D A D A
I uvijek sanjam tople usne zene
D A D
kako me ljube, kako me ljube.
G F#m A
mmmmmm, kako me ljube.


Noci su ovdje nepoznate price.
Gasim cigaru i dizem se dugo.
I nikom ne dam da mi u snove udje.
Uzivam dugo, gledam je kradom.


* intro (i refren) se moze ovako svirat:
7x
e|-------0--------|
B|--3--3-3-2--2---|
G|--2--2-2-3--2---|
D|--0--0-0-0--2---|
A|----------------|
E|----------------|

A sta da radim

intro : Hm Em Hm

Hm
A sta da radim
G A Hm
kad odu prijatelji moji
G F# E G F# Hm
kad ode djevojka na koju bacam oci

(ovaj dio bolje zvuci kada sviras Em i Hm na sedmom pragu)

Em Hm
I tako redom dan za danom
Em Hm
na javnim mjestima s gitarom
Em Hm
naravno da uvijek netko dodje
F# Hm
da me cuje makar i kradom Solo:(h, a, g,)

F# Hm
Nista mi vise nije vazno
A D
Nasao sam dobar bend
Em Hm
Zelim samo da sviram
F# Hm
Da se otkacim i to je sve

A sta da radim
kad odu prijatelji moji
kad ode djevojka na koju bacam oci

Em Hm
Ljudi samo govore
Em Hm
zasto si nervozan
Em Hm
ljudi samo pricaju
Em Hm
ne budi tako grozan
Em Hm
ljudske usne sapuc'u
Em Hm
sunjaj se ti kradom
Em Hm
izbjegavaj nevolje
F# Hm
skinut c'e ti glavu

Solo:
-|---------------------------------------------------------------------------
-|-------x17-14--------x15-12------------------------------------x17-14------
-|----x17-----------x15----------11-11-11-11-11-11------------x17------------
-|-x17-----------x15-------------------------------12------x17---------------
-|----------------------------------------------------14---------------------
-|---------------------------------------------------------------------------

-|---------------------------------------------------------------------------
-|-------x15-12-----------------------------------------12--15-12------------
-|----x15---------------------------11--------------x12-----------14-14p12---
-|-x15------------14b16r14-12-14b16----12--------x12-------------------------
-|----------------------------------------14---------------------------------
-|---------------------------------------------------------------------------

-|---------------------------------------------------------------------------
-|-------------------------12--15-12--------------------------------12--15-12
-|----11---------------x12-----------14-12-14-14/16-------------x12----------
-|-14----12---------x12--------------------------------------x12-------------
-|----------14-14------------------------------------------------------------
-|---------------------------------------------------------------------------

-|---------------------------------------------------------------------------
-|---------------------------------------------------------------------------
-|-14-14p12----11----------------------------------------11------------------
-|----------14----12--------12-14-14b16---16r14-12-14b16----12---------------
-|-------------------14-14-------------------------------------14------------
-|---------------------------------------------------------------------------
[Vrh] Go down
Korisnički profil
 
AZRA
[Vrh] 
Stranica 1 / 1.

Permissions in this forum:Ne možeš odgovarati na postove.
rock and roll :: Muzika :: Akordi-
Forum(o)Bir: